Maurice Ravel

accueil > Maurice Ra... > accords

Maurice Ravel

Bolero

Difficulté: aucun niveauaucun niveau

by Teusalves

tuner corriger ajouter à songbook version imprimable version texte version rtf e-mail
accordstabbassetambourharmoniquesflûteéclatclavier Guitar Pro
accords

Bolero

	  I  

e|---10-10-7---10----9-10---12--10-9-7---10--10-7--10-|  
B|----------------------------------------------------|  
G|----------------------------------------------------|  
D|----------------------------------------------------|  
A|-----------0-----------0-----------------------0----|  
D|-0---------------0-------------------0--------------|  

e|---9-10-----------------------------------------------|  
B|---------12-10/8-7-8-10------8-7h8p7----7-8-10-12--10-|  
G|-------------------------------------9----------------|  
D|------------------------------------------------------|  
A|--------0---------------0---------------0-------------|  
D|-0------------------0------0----------------------0---|  

e|--------9---------------------------------------------------|  
B|-----12---12--10-8-7----7h8p7------------7-8-----10--10-----|  
G|---------------------9--------9-7---7-9--------9------------|  
D|------------------------------------------------------------|  
A|-0-----------0--------------------0----------0----------0---|  
D|---0-------------------0----------------0-----------0-----0-|  


II  

e|--12------10-9----9-10-12-10-9-----10-9----10-9----------|  
B|---------------12-----------------------12------10\8-8---|  
G|---------------------------------------------------------|  
D|---------------------------------------------------------|  
A|-----0------------0------------0-----------0-------------|  
D|-0-----0---------------------0---0---------------------0-|  

e|------7--10--7-9-7-------------9----7-----------|  
B|--------------------8-------10---10---8---------|  
G|----------------------------------------9-------|  
D|------------------------------------------------|  
A|-0------0--------------0-----0---------------0--|  
D|---0----------------0----0-------------0--------|  

e|------------7-------------------------------------------|  
B|---------8----8-10-7-------------7-8-10---8-7-----------|  
G|---9-9-9-------------9--9-9-9------------------9--7-----|  
D|--------------------------------------------------------|  
A|------0--------------0-----0------------0-----------0---|  
D|-0----------0----------0----------0------------0------0-|  


III  

e|---8------7--------8-10-7------8---7-8p7--------------------|  
B|--------------10-8---------10-------------10----8-7---7-----|  
G|----------------------------------------------------9-------|  
D|-----------------------------------0------------------------|  
A|----0-------------0-----------0---------------0---------0---|  
D|-0-----0------------------------------------0--------0----0-|  

e|-8-10--11-10-8--11-10-8--11-11-11-11-11-10-8--11-10-8------------|  
B|-------------------------------------------------------11-10-8-7-|  
G|-----------------------------------------------------------------|  
D|-----0-----------------------------------------------------------|  
A|--------------0-------------0-----0------------------------------|  
D|------------------------0------0-----0-------0----------0--------|  

e|-----------------5-6----------------------------------------------|  
B|-----5-7--5-7-8------7--5-7p5--------------5-7p5------------------|  
G|-------------------------------7-5-7-5-7---------7--5-7-5---5-----|  
D|----------------------------------------------------------8---8-7-|  
A|-0------0---------------------------------------------------------|  
E|---0-----------0------0----------0-------0--------0--------0------|  

e|--------------------------------------------------------|  
B|--------------------------------------------------------|  
G|--------------------------------------0-----------------|  
D|---5--7p5-7-3------5p3-5-1-----1h3p1----3-1-0-----------|  
A|--------------------------------------------------------|  
D|-0--0---0----0-0-0--------0-0-0----------------0--------|  

	  

Demande la vidéo "Bolero" - Download Maurice Ravel Bolero mp3

bolero-by-maurice-ravel Jouer

il ya une leçon vidéo pour cette chanson

regarder maintenant

Envoyez vos commentaires ci-dessous. 140

0 commentaires

 
lestabs
rechercher
Petaxxon
défilement automatique temps agrandir réduire changement de couleur nasquer les accords dessins
tab accords montrent lestabs YouTube lestabs masquer onglets lestabs vers le haut tab